ISO-10303-21;
HEADER;
FILE_DESCRIPTION (( 'STEP AP214' ),
    '1' );
FILE_NAME ('5015812.stp',
    '2017-06-14T08:15:14',
    ( '' ),
    ( '' ),
    'SwSTEP 2.0',
    'SolidWorks 2016',
    '' );
FILE_SCHEMA (( 'AUTOMOTIVE_DESIGN' ));
ENDSEC;

DATA;
#1 = PRODUCT_DEFINITION_FORMATION_WITH_SPECIFIED_SOURCE ( 'ANY', '', #181, .NOT_KNOWN. ) ;
#2 = ORIENTED_EDGE ( 'NONE', *, *, #174, .T. ) ;
#3 = ORIENTED_EDGE ( 'NONE', *, *, #150, .F. ) ;
#4 = FACE_OUTER_BOUND ( 'NONE', #185, .T. ) ;
#5 = MECHANICAL_DESIGN_GEOMETRIC_PRESENTATION_REPRESENTATION (  '', ( #191 ), #90 ) ;
#6 = ORIENTED_EDGE ( 'NONE', *, *, #166, .T. ) ;
#7 = ORIENTED_EDGE ( 'NONE', *, *, #173, .F. ) ;
#8 = AXIS2_PLACEMENT_3D ( 'NONE', #127, #201, #196 ) ;
#9 = ORIENTED_EDGE ( 'NONE', *, *, #119, .F. ) ;
#10 = ORIENTED_EDGE ( 'NONE', *, *, #99, .F. ) ;
#11 = CARTESIAN_POINT ( 'NONE',  ( 5.000000000000000000, -5.000000000000000000, -322.5000000000000000 ) ) ;
#12 = ORIENTED_EDGE ( 'NONE', *, *, #52, .T. ) ;
#13 = ORIENTED_EDGE ( 'NONE', *, *, #25, .F. ) ;
#14 = EDGE_LOOP ( 'NONE', ( #73, #13, #9, #2 ) ) ;
#15 = EDGE_LOOP ( 'NONE', ( #112, #37, #58, #141 ) ) ;
#16 = ORIENTED_EDGE ( 'NONE', *, *, #166, .F. ) ;
#17 = VERTEX_POINT ( 'NONE', #144 ) ;
#18 = CARTESIAN_POINT ( 'NONE',  ( -5.000000000000000000, 5.000000000000000000, 322.5000000000000000 ) ) ;
#19 = CARTESIAN_POINT ( 'NONE',  ( 5.000000000000000000, 5.000000000000000000, 322.5000000000000000 ) ) ;
#20 = CARTESIAN_POINT ( 'NONE',  ( -5.000000000000000000, 5.000000000000000000, 322.5000000000000000 ) ) ;
#21 = ORIENTED_EDGE ( 'NONE', *, *, #25, .T. ) ;
#22 = DIRECTION ( 'NONE',  ( -0.0000000000000000000, -0.0000000000000000000, -1.000000000000000000 ) ) ;
#23 = SURFACE_SIDE_STYLE ('',( #36 ) ) ;
#24 = DIRECTION ( 'NONE',  ( 1.000000000000000000, 0.0000000000000000000, 0.0000000000000000000 ) ) ;
#25 = EDGE_CURVE ( 'NONE', #172, #17, #63, .T. ) ;
#26 = VECTOR ( 'NONE', #116, 1000.000000000000000 ) ;
#27 = SURFACE_STYLE_USAGE ( .BOTH. , #23 ) ;
#28 =( LENGTH_UNIT ( ) NAMED_UNIT ( * ) SI_UNIT ( .MILLI., .METRE. ) );
#29 = ADVANCED_FACE ( 'NONE', ( #160 ), #53, .T. ) ;
#30 = ADVANCED_FACE ( 'NONE', ( #4 ), #46, .F. ) ;
#31 = LINE ( 'NONE', #121, #182 ) ;
#32 = VERTEX_POINT ( 'NONE', #50 ) ;
#33 = DIRECTION ( 'NONE',  ( 0.0000000000000000000, -0.0000000000000000000, -1.000000000000000000 ) ) ;
#34 = ADVANCED_FACE ( 'NONE', ( #55 ), #43, .F. ) ;
#35 = LINE ( 'NONE', #93, #103 ) ;
#36 = SURFACE_STYLE_FILL_AREA ( #65 ) ;
#37 = ORIENTED_EDGE ( 'NONE', *, *, #64, .F. ) ;
#38 = LINE ( 'NONE', #11, #61 ) ;
#39 = CARTESIAN_POINT ( 'NONE',  ( -5.000000000000000000, 5.000000000000000000, 322.5000000000000000 ) ) ;
#40 = COLOUR_RGB ( '',0.7529411764705882200, 0.7529411764705882200, 0.7529411764705882200 ) ;
#41 = CARTESIAN_POINT ( 'NONE',  ( 5.000000000000000000, 5.000000000000000000, -322.5000000000000000 ) ) ;
#42 = DIRECTION ( 'NONE',  ( 0.0000000000000000000, 0.0000000000000000000, -1.000000000000000000 ) ) ;
#43 = PLANE ( 'NONE',  #68 ) ;
#44 = LINE ( 'NONE', #115, #161 ) ;
#45 = SHAPE_DEFINITION_REPRESENTATION ( #82, #167 ) ;
#46 = PLANE ( 'NONE',  #104 ) ;
#47 = DIRECTION ( 'NONE',  ( -1.000000000000000000, 0.0000000000000000000, -0.0000000000000000000 ) ) ;
#48 = DIRECTION ( 'NONE',  ( -0.0000000000000000000, -0.0000000000000000000, -1.000000000000000000 ) ) ;
#49 = DIRECTION ( 'NONE',  ( 0.0000000000000000000, 0.0000000000000000000, -1.000000000000000000 ) ) ;
#50 = CARTESIAN_POINT ( 'NONE',  ( -5.000000000000000000, 5.000000000000000000, -322.5000000000000000 ) ) ;
#51 = CARTESIAN_POINT ( 'NONE',  ( 0.0000000000000000000, 0.0000000000000000000, -322.5000000000000000 ) ) ;
#52 = EDGE_CURVE ( 'NONE', #17, #54, #38, .T. ) ;
#53 = PLANE ( 'NONE',  #94 ) ;
#54 = VERTEX_POINT ( 'NONE', #41 ) ;
#55 = FACE_OUTER_BOUND ( 'NONE', #15, .T. ) ;
#56 = FACE_OUTER_BOUND ( 'NONE', #14, .T. ) ;
#57 = ORIENTED_EDGE ( 'NONE', *, *, #62, .F. ) ;
#58 = ORIENTED_EDGE ( 'NONE', *, *, #84, .F. ) ;
#59 = UNCERTAINTY_MEASURE_WITH_UNIT (LENGTH_MEASURE( 1.000000000000000100E-005 ), #186, 'distance_accuracy_value', 'NONE');
#60 = LINE ( 'NONE', #39, #143 ) ;
#61 = VECTOR ( 'NONE', #72, 1000.000000000000000 ) ;
#62 = EDGE_CURVE ( 'NONE', #70, #54, #180, .T. ) ;
#63 = LINE ( 'NONE', #66, #75 ) ;
#64 = EDGE_CURVE ( 'NONE', #101, #32, #60, .T. ) ;
#65 = FILL_AREA_STYLE ('',( #146 ) ) ;
#66 = CARTESIAN_POINT ( 'NONE',  ( 5.000000000000000000, -5.000000000000000000, 322.5000000000000000 ) ) ;
#67 = LINE ( 'NONE', #124, #126 ) ;
#68 = AXIS2_PLACEMENT_3D ( 'NONE', #18, #79, #33 ) ;
#69 = ORIENTED_EDGE ( 'NONE', *, *, #174, .F. ) ;
#70 = VERTEX_POINT ( 'NONE', #19 ) ;
#71 = UNCERTAINTY_MEASURE_WITH_UNIT (LENGTH_MEASURE( 1.000000000000000100E-005 ), #28, 'distance_accuracy_value', 'NONE');
#72 = DIRECTION ( 'NONE',  ( 0.0000000000000000000, 1.000000000000000000, 0.0000000000000000000 ) ) ;
#73 = ORIENTED_EDGE ( 'NONE', *, *, #99, .T. ) ;
#74 = CARTESIAN_POINT ( 'NONE',  ( -5.000000000000000000, -5.000000000000000000, 322.5000000000000000 ) ) ;
#75 = VECTOR ( 'NONE', #48, 1000.000000000000000 ) ;
#76 = ORIENTED_EDGE ( 'NONE', *, *, #119, .T. ) ;
#77 = PRESENTATION_LAYER_ASSIGNMENT (  '', '', ( #107 ) ) ;
#78 = VERTEX_POINT ( 'NONE', #100 ) ;
#79 = DIRECTION ( 'NONE',  ( 0.0000000000000000000, -1.000000000000000000, 0.0000000000000000000 ) ) ;
#80 = MANIFOLD_SOLID_BREP ( 'Boss-Extrude1', #151 ) ;
#81 =( NAMED_UNIT ( * ) PLANE_ANGLE_UNIT ( ) SI_UNIT ( $, .RADIAN. ) );
#82 = PRODUCT_DEFINITION_SHAPE ( 'NONE', 'NONE',  #153 ) ;
#83 = EDGE_LOOP ( 'NONE', ( #197, #10, #3, #7 ) ) ;
#84 = EDGE_CURVE ( 'NONE', #70, #101, #175, .T. ) ;
#85 = EDGE_LOOP ( 'NONE', ( #170, #158, #6, #76 ) ) ;
#86 = FACE_OUTER_BOUND ( 'NONE', #85, .T. ) ;
#87 =( NAMED_UNIT ( * ) SI_UNIT ( $, .STERADIAN. ) SOLID_ANGLE_UNIT ( ) );
#88 = CARTESIAN_POINT ( 'NONE',  ( -5.000000000000000000, -5.000000000000000000, -322.5000000000000000 ) ) ;
#89 = PRESENTATION_STYLE_ASSIGNMENT (( #171 ) ) ;
#90 =( GEOMETRIC_REPRESENTATION_CONTEXT ( 3 ) GLOBAL_UNCERTAINTY_ASSIGNED_CONTEXT ( ( #59 ) ) GLOBAL_UNIT_ASSIGNED_CONTEXT ( ( #186, #200, #199 ) ) REPRESENTATION_CONTEXT ( 'NONE', 'WORKASPACE' ) );
#91 = LINE ( 'NONE', #97, #157 ) ;
#92 = UNCERTAINTY_MEASURE_WITH_UNIT (LENGTH_MEASURE( 1.000000000000000100E-005 ), #202, 'distance_accuracy_value', 'NONE');
#93 = CARTESIAN_POINT ( 'NONE',  ( -5.000000000000000000, -5.000000000000000000, -322.5000000000000000 ) ) ;
#94 = AXIS2_PLACEMENT_3D ( 'NONE', #51, #49, #47 ) ;
#95 = DIRECTION ( 'NONE',  ( -1.000000000000000000, -0.0000000000000000000, -0.0000000000000000000 ) ) ;
#96 = AXIS2_PLACEMENT_3D ( 'NONE', #111, #106, #118 ) ;
#97 = CARTESIAN_POINT ( 'NONE',  ( -5.000000000000000000, -5.000000000000000000, 322.5000000000000000 ) ) ;
#98 = DIRECTION ( 'NONE',  ( -1.000000000000000000, -0.0000000000000000000, -0.0000000000000000000 ) ) ;
#99 = EDGE_CURVE ( 'NONE', #183, #17, #35, .T. ) ;
#100 = CARTESIAN_POINT ( 'NONE',  ( -5.000000000000000000, -5.000000000000000000, 322.5000000000000000 ) ) ;
#101 = VERTEX_POINT ( 'NONE', #102 ) ;
#102 = CARTESIAN_POINT ( 'NONE',  ( -5.000000000000000000, 5.000000000000000000, 322.5000000000000000 ) ) ;
#103 = VECTOR ( 'NONE', #105, 1000.000000000000000 ) ;
#104 = AXIS2_PLACEMENT_3D ( 'NONE', #74, #24, #42 ) ;
#105 = DIRECTION ( 'NONE',  ( 1.000000000000000000, 0.0000000000000000000, 0.0000000000000000000 ) ) ;
#106 = DIRECTION ( 'NONE',  ( 0.0000000000000000000, 0.0000000000000000000, -1.000000000000000000 ) ) ;
#107 = STYLED_ITEM ( 'NONE', ( #198 ), #80 ) ;
#108 = CARTESIAN_POINT ( 'NONE',  ( 5.000000000000000000, -5.000000000000000000, 322.5000000000000000 ) ) ;
#109 = CARTESIAN_POINT ( 'NONE',  ( 5.000000000000000000, -5.000000000000000000, 322.5000000000000000 ) ) ;
#110 = AXIS2_PLACEMENT_3D ( 'NONE', #134, #148, #147 ) ;
#111 = CARTESIAN_POINT ( 'NONE',  ( 0.0000000000000000000, 0.0000000000000000000, 322.5000000000000000 ) ) ;
#112 = ORIENTED_EDGE ( 'NONE', *, *, #173, .T. ) ;
#113 = DIRECTION ( 'NONE',  ( 1.000000000000000000, 0.0000000000000000000, 0.0000000000000000000 ) ) ;
#114 = DIRECTION ( 'NONE',  ( -0.0000000000000000000, -1.000000000000000000, -0.0000000000000000000 ) ) ;
#115 = CARTESIAN_POINT ( 'NONE',  ( -5.000000000000000000, -5.000000000000000000, -322.5000000000000000 ) ) ;
#116 = DIRECTION ( 'NONE',  ( 0.0000000000000000000, 1.000000000000000000, 0.0000000000000000000 ) ) ;
#117 = PLANE ( 'NONE',  #96 ) ;
#118 = DIRECTION ( 'NONE',  ( -1.000000000000000000, 0.0000000000000000000, -0.0000000000000000000 ) ) ;
#119 = EDGE_CURVE ( 'NONE', #78, #172, #91, .T. ) ;
#120 = ORIENTED_EDGE ( 'NONE', *, *, #64, .T. ) ;
#121 = CARTESIAN_POINT ( 'NONE',  ( -5.000000000000000000, -5.000000000000000000, 322.5000000000000000 ) ) ;
#122 = FACE_OUTER_BOUND ( 'NONE', #132, .T. ) ;
#123 = CARTESIAN_POINT ( 'NONE',  ( -5.000000000000000000, 5.000000000000000000, -322.5000000000000000 ) ) ;
#124 = CARTESIAN_POINT ( 'NONE',  ( -5.000000000000000000, -5.000000000000000000, 322.5000000000000000 ) ) ;
#125 = CARTESIAN_POINT ( 'NONE',  ( 5.000000000000000000, -5.000000000000000000, 322.5000000000000000 ) ) ;
#126 = VECTOR ( 'NONE', #131, 1000.000000000000000 ) ;
#127 = CARTESIAN_POINT ( 'NONE',  ( 0.0000000000000000000, 0.0000000000000000000, 0.0000000000000000000 ) ) ;
#128 = DIRECTION ( 'NONE',  ( -0.0000000000000000000, -1.000000000000000000, -0.0000000000000000000 ) ) ;
#129 = PRODUCT_DEFINITION_CONTEXT ( 'detailed design', #193, 'design' ) ;
#130 = PLANE ( 'NONE',  #189 ) ;
#131 = DIRECTION ( 'NONE',  ( -0.0000000000000000000, -0.0000000000000000000, -1.000000000000000000 ) ) ;
#132 = EDGE_LOOP ( 'NONE', ( #12, #57, #156, #21 ) ) ;
#133 = ADVANCED_FACE ( 'NONE', ( #86 ), #117, .F. ) ;
#134 = CARTESIAN_POINT ( 'NONE',  ( -5.000000000000000000, -5.000000000000000000, 322.5000000000000000 ) ) ;
#135 = PRODUCT_RELATED_PRODUCT_CATEGORY ( 'part', '', ( #181 ) ) ;
#136 = DIRECTION ( 'NONE',  ( -1.000000000000000000, 0.0000000000000000000, 0.0000000000000000000 ) ) ;
#137 = FILL_AREA_STYLE_COLOUR ( '', #194 ) ;
#138 = APPLICATION_PROTOCOL_DEFINITION ( 'draft international standard', 'automotive_design', 1998, #195 ) ;
#139 =( NAMED_UNIT ( * ) SI_UNIT ( $, .STERADIAN. ) SOLID_ANGLE_UNIT ( ) );
#140 = FILL_AREA_STYLE ('',( #137 ) ) ;
#141 = ORIENTED_EDGE ( 'NONE', *, *, #62, .T. ) ;
#142 = SURFACE_SIDE_STYLE ('',( #188 ) ) ;
#143 = VECTOR ( 'NONE', #22, 1000.000000000000000 ) ;
#144 = CARTESIAN_POINT ( 'NONE',  ( 5.000000000000000000, -5.000000000000000000, -322.5000000000000000 ) ) ;
#145 =( NAMED_UNIT ( * ) PLANE_ANGLE_UNIT ( ) SI_UNIT ( $, .RADIAN. ) );
#146 = FILL_AREA_STYLE_COLOUR ( '', #40 ) ;
#147 = DIRECTION ( 'NONE',  ( 0.0000000000000000000, -0.0000000000000000000, 1.000000000000000000 ) ) ;
#148 = DIRECTION ( 'NONE',  ( 0.0000000000000000000, 1.000000000000000000, 0.0000000000000000000 ) ) ;
#149 = PLANE ( 'NONE',  #110 ) ;
#150 = EDGE_CURVE ( 'NONE', #32, #183, #44, .T. ) ;
#151 = CLOSED_SHELL ( 'NONE', ( #179, #34, #30, #190, #133, #29 ) ) ;
#152 = CARTESIAN_POINT ( 'NONE',  ( 5.000000000000000000, 5.000000000000000000, 322.5000000000000000 ) ) ;
#153 = PRODUCT_DEFINITION ( 'UNKNOWN', '', #1, #129 ) ;
#154 = DIRECTION ( 'NONE',  ( 0.0000000000000000000, 0.0000000000000000000, 1.000000000000000000 ) ) ;
#155 =( GEOMETRIC_REPRESENTATION_CONTEXT ( 3 ) GLOBAL_UNCERTAINTY_ASSIGNED_CONTEXT ( ( #71 ) ) GLOBAL_UNIT_ASSIGNED_CONTEXT ( ( #28, #81, #87 ) ) REPRESENTATION_CONTEXT ( 'NONE', 'WORKASPACE' ) );
#156 = ORIENTED_EDGE ( 'NONE', *, *, #162, .F. ) ;
#157 = VECTOR ( 'NONE', #113, 1000.000000000000000 ) ;
#158 = ORIENTED_EDGE ( 'NONE', *, *, #84, .T. ) ;
#159 = DIRECTION ( 'NONE',  ( -0.0000000000000000000, -0.0000000000000000000, -1.000000000000000000 ) ) ;
#160 = FACE_OUTER_BOUND ( 'NONE', #83, .T. ) ;
#161 = VECTOR ( 'NONE', #114, 1000.000000000000000 ) ;
#162 = EDGE_CURVE ( 'NONE', #172, #70, #177, .T. ) ;
#163 = VECTOR ( 'NONE', #98, 1000.000000000000000 ) ;
#164 = VECTOR ( 'NONE', #95, 1000.000000000000000 ) ;
#165 = LINE ( 'NONE', #123, #163 ) ;
#166 = EDGE_CURVE ( 'NONE', #101, #78, #31, .T. ) ;
#167 = ADVANCED_BREP_SHAPE_REPRESENTATION ( '5015812', ( #80, #8 ), #187 ) ;
#168 = ORIENTED_EDGE ( 'NONE', *, *, #150, .T. ) ;
#169 = MECHANICAL_DESIGN_GEOMETRIC_PRESENTATION_REPRESENTATION (  '', ( #107 ), #155 ) ;
#170 = ORIENTED_EDGE ( 'NONE', *, *, #162, .T. ) ;
#171 = SURFACE_STYLE_USAGE ( .BOTH. , #142 ) ;
#172 = VERTEX_POINT ( 'NONE', #109 ) ;
#173 = EDGE_CURVE ( 'NONE', #54, #32, #165, .T. ) ;
#174 = EDGE_CURVE ( 'NONE', #78, #183, #67, .T. ) ;
#175 = LINE ( 'NONE', #20, #164 ) ;
#176 = PRESENTATION_LAYER_ASSIGNMENT (  '', '', ( #191 ) ) ;
#177 = LINE ( 'NONE', #108, #26 ) ;
#178 = VECTOR ( 'NONE', #159, 1000.000000000000000 ) ;
#179 = ADVANCED_FACE ( 'NONE', ( #122 ), #130, .F. ) ;
#180 = LINE ( 'NONE', #152, #178 ) ;
#181 = PRODUCT ( '5015812', '5015812', '', ( #184 ) ) ;
#182 = VECTOR ( 'NONE', #128, 1000.000000000000000 ) ;
#183 = VERTEX_POINT ( 'NONE', #88 ) ;
#184 = PRODUCT_CONTEXT ( 'NONE', #195, 'mechanical' ) ;
#185 = EDGE_LOOP ( 'NONE', ( #168, #69, #16, #120 ) ) ;
#186 =( LENGTH_UNIT ( ) NAMED_UNIT ( * ) SI_UNIT ( .MILLI., .METRE. ) );
#187 =( GEOMETRIC_REPRESENTATION_CONTEXT ( 3 ) GLOBAL_UNCERTAINTY_ASSIGNED_CONTEXT ( ( #92 ) ) GLOBAL_UNIT_ASSIGNED_CONTEXT ( ( #202, #145, #139 ) ) REPRESENTATION_CONTEXT ( 'NONE', 'WORKASPACE' ) );
#188 = SURFACE_STYLE_FILL_AREA ( #140 ) ;
#189 = AXIS2_PLACEMENT_3D ( 'NONE', #125, #136, #154 ) ;
#190 = ADVANCED_FACE ( 'NONE', ( #56 ), #149, .F. ) ;
#191 = STYLED_ITEM ( 'NONE', ( #89 ), #167 ) ;
#192 = APPLICATION_PROTOCOL_DEFINITION ( 'draft international standard', 'automotive_design', 1998, #193 ) ;
#193 = APPLICATION_CONTEXT ( 'automotive_design' ) ;
#194 = COLOUR_RGB ( '',0.7529411764705882200, 0.7529411764705882200, 0.7529411764705882200 ) ;
#195 = APPLICATION_CONTEXT ( 'automotive_design' ) ;
#196 = DIRECTION ( 'NONE',  ( 1.000000000000000000, 0.0000000000000000000, 0.0000000000000000000 ) ) ;
#197 = ORIENTED_EDGE ( 'NONE', *, *, #52, .F. ) ;
#198 = PRESENTATION_STYLE_ASSIGNMENT (( #27 ) ) ;
#199 =( NAMED_UNIT ( * ) SI_UNIT ( $, .STERADIAN. ) SOLID_ANGLE_UNIT ( ) );
#200 =( NAMED_UNIT ( * ) PLANE_ANGLE_UNIT ( ) SI_UNIT ( $, .RADIAN. ) );
#201 = DIRECTION ( 'NONE',  ( 0.0000000000000000000, 0.0000000000000000000, 1.000000000000000000 ) ) ;
#202 =( LENGTH_UNIT ( ) NAMED_UNIT ( * ) SI_UNIT ( .MILLI., .METRE. ) );
ENDSEC;
END-ISO-10303-21;
