ISO-10303-21;
HEADER;
FILE_DESCRIPTION((''),'2;1');
FILE_NAME('2046752','2015-06-17T',('AndreasKeweloh'),(''),
'CREO PARAMETRIC BY PTC INC, 2015080','CREO PARAMETRIC BY PTC INC, 2015080','');
FILE_SCHEMA(('CONFIG_CONTROL_DESIGN'));
ENDSEC;
DATA;
#1=DIRECTION('',(1.E0,0.E0,0.E0));
#2=VECTOR('',#1,3.E3);
#3=CARTESIAN_POINT('',(0.E0,0.E0,-1.15E1));
#4=LINE('',#3,#2);
#5=DIRECTION('',(1.E0,0.E0,0.E0));
#6=VECTOR('',#5,3.E3);
#7=CARTESIAN_POINT('',(0.E0,0.E0,1.15E1));
#8=LINE('',#7,#6);
#9=CARTESIAN_POINT('',(3.E3,0.E0,0.E0));
#10=DIRECTION('',(1.E0,0.E0,0.E0));
#11=DIRECTION('',(0.E0,0.E0,1.E0));
#12=AXIS2_PLACEMENT_3D('',#9,#10,#11);
#14=CARTESIAN_POINT('',(3.E3,0.E0,0.E0));
#15=DIRECTION('',(1.E0,0.E0,0.E0));
#16=DIRECTION('',(0.E0,0.E0,-1.E0));
#17=AXIS2_PLACEMENT_3D('',#14,#15,#16);
#19=CARTESIAN_POINT('',(3.E3,0.E0,0.E0));
#20=DIRECTION('',(-1.E0,0.E0,0.E0));
#21=DIRECTION('',(0.E0,0.E0,-1.E0));
#22=AXIS2_PLACEMENT_3D('',#19,#20,#21);
#24=CARTESIAN_POINT('',(3.E3,0.E0,0.E0));
#25=DIRECTION('',(-1.E0,0.E0,0.E0));
#26=DIRECTION('',(0.E0,0.E0,1.E0));
#27=AXIS2_PLACEMENT_3D('',#24,#25,#26);
#29=DIRECTION('',(1.E0,0.E0,0.E0));
#30=VECTOR('',#29,3.E3);
#31=CARTESIAN_POINT('',(0.E0,0.E0,-1.25E1));
#32=LINE('',#31,#30);
#33=DIRECTION('',(1.E0,0.E0,0.E0));
#34=VECTOR('',#33,3.E3);
#35=CARTESIAN_POINT('',(0.E0,0.E0,1.25E1));
#36=LINE('',#35,#34);
#37=CARTESIAN_POINT('',(0.E0,0.E0,0.E0));
#38=DIRECTION('',(-1.E0,0.E0,0.E0));
#39=DIRECTION('',(0.E0,0.E0,-1.E0));
#40=AXIS2_PLACEMENT_3D('',#37,#38,#39);
#42=CARTESIAN_POINT('',(0.E0,0.E0,0.E0));
#43=DIRECTION('',(-1.E0,0.E0,0.E0));
#44=DIRECTION('',(0.E0,0.E0,1.E0));
#45=AXIS2_PLACEMENT_3D('',#42,#43,#44);
#47=CARTESIAN_POINT('',(0.E0,0.E0,0.E0));
#48=DIRECTION('',(1.E0,0.E0,0.E0));
#49=DIRECTION('',(0.E0,0.E0,1.E0));
#50=AXIS2_PLACEMENT_3D('',#47,#48,#49);
#52=CARTESIAN_POINT('',(0.E0,0.E0,0.E0));
#53=DIRECTION('',(1.E0,0.E0,0.E0));
#54=DIRECTION('',(0.E0,0.E0,-1.E0));
#55=AXIS2_PLACEMENT_3D('',#52,#53,#54);
#57=CARTESIAN_POINT('',(0.E0,0.E0,-1.25E1));
#58=CARTESIAN_POINT('',(0.E0,0.E0,1.25E1));
#59=VERTEX_POINT('',#57);
#60=VERTEX_POINT('',#58);
#61=CARTESIAN_POINT('',(3.E3,0.E0,1.25E1));
#62=CARTESIAN_POINT('',(3.E3,0.E0,-1.25E1));
#63=VERTEX_POINT('',#61);
#64=VERTEX_POINT('',#62);
#65=CARTESIAN_POINT('',(3.E3,0.E0,1.15E1));
#66=CARTESIAN_POINT('',(3.E3,0.E0,-1.15E1));
#67=VERTEX_POINT('',#65);
#68=VERTEX_POINT('',#66);
#69=CARTESIAN_POINT('',(0.E0,0.E0,1.15E1));
#70=CARTESIAN_POINT('',(0.E0,0.E0,-1.15E1));
#71=VERTEX_POINT('',#69);
#72=VERTEX_POINT('',#70);
#73=CARTESIAN_POINT('',(3.E3,0.E0,0.E0));
#74=DIRECTION('',(-1.E0,0.E0,0.E0));
#75=DIRECTION('',(0.E0,0.E0,1.E0));
#76=AXIS2_PLACEMENT_3D('',#73,#74,#75);
#77=CYLINDRICAL_SURFACE('',#76,1.15E1);
#79=ORIENTED_EDGE('',*,*,#78,.F.);
#81=ORIENTED_EDGE('',*,*,#80,.T.);
#83=ORIENTED_EDGE('',*,*,#82,.T.);
#85=ORIENTED_EDGE('',*,*,#84,.T.);
#86=EDGE_LOOP('',(#79,#81,#83,#85));
#87=FACE_OUTER_BOUND('',#86,.F.);
#88=ADVANCED_FACE('',(#87),#77,.F.);
#89=CARTESIAN_POINT('',(3.E3,0.E0,0.E0));
#90=DIRECTION('',(-1.E0,0.E0,0.E0));
#91=DIRECTION('',(0.E0,0.E0,1.E0));
#92=AXIS2_PLACEMENT_3D('',#89,#90,#91);
#93=CYLINDRICAL_SURFACE('',#92,1.15E1);
#95=ORIENTED_EDGE('',*,*,#94,.T.);
#96=ORIENTED_EDGE('',*,*,#82,.F.);
#98=ORIENTED_EDGE('',*,*,#97,.T.);
#99=ORIENTED_EDGE('',*,*,#78,.T.);
#100=EDGE_LOOP('',(#95,#96,#98,#99));
#101=FACE_OUTER_BOUND('',#100,.F.);
#102=ADVANCED_FACE('',(#101),#93,.F.);
#103=CARTESIAN_POINT('',(3.E3,0.E0,0.E0));
#104=DIRECTION('',(1.E0,0.E0,0.E0));
#105=DIRECTION('',(0.E0,0.E0,-1.E0));
#106=AXIS2_PLACEMENT_3D('',#103,#104,#105);
#107=PLANE('',#106);
#109=ORIENTED_EDGE('',*,*,#108,.F.);
#111=ORIENTED_EDGE('',*,*,#110,.F.);
#112=EDGE_LOOP('',(#109,#111));
#113=FACE_OUTER_BOUND('',#112,.F.);
#114=ORIENTED_EDGE('',*,*,#94,.F.);
#115=ORIENTED_EDGE('',*,*,#84,.F.);
#116=EDGE_LOOP('',(#114,#115));
#117=FACE_BOUND('',#116,.F.);
#118=ADVANCED_FACE('',(#113,#117),#107,.T.);
#119=CARTESIAN_POINT('',(3.E3,0.E0,0.E0));
#120=DIRECTION('',(-1.E0,0.E0,0.E0));
#121=DIRECTION('',(0.E0,0.E0,1.E0));
#122=AXIS2_PLACEMENT_3D('',#119,#120,#121);
#123=CYLINDRICAL_SURFACE('',#122,1.25E1);
#125=ORIENTED_EDGE('',*,*,#124,.F.);
#127=ORIENTED_EDGE('',*,*,#126,.T.);
#129=ORIENTED_EDGE('',*,*,#128,.T.);
#130=ORIENTED_EDGE('',*,*,#108,.T.);
#131=EDGE_LOOP('',(#125,#127,#129,#130));
#132=FACE_OUTER_BOUND('',#131,.F.);
#133=ADVANCED_FACE('',(#132),#123,.T.);
#134=CARTESIAN_POINT('',(3.E3,0.E0,0.E0));
#135=DIRECTION('',(-1.E0,0.E0,0.E0));
#136=DIRECTION('',(0.E0,0.E0,1.E0));
#137=AXIS2_PLACEMENT_3D('',#134,#135,#136);
#138=CYLINDRICAL_SURFACE('',#137,1.25E1);
#139=ORIENTED_EDGE('',*,*,#110,.T.);
#140=ORIENTED_EDGE('',*,*,#128,.F.);
#142=ORIENTED_EDGE('',*,*,#141,.T.);
#143=ORIENTED_EDGE('',*,*,#124,.T.);
#144=EDGE_LOOP('',(#139,#140,#142,#143));
#145=FACE_OUTER_BOUND('',#144,.F.);
#146=ADVANCED_FACE('',(#145),#138,.T.);
#147=CARTESIAN_POINT('',(0.E0,0.E0,0.E0));
#148=DIRECTION('',(1.E0,0.E0,0.E0));
#149=DIRECTION('',(0.E0,0.E0,-1.E0));
#150=AXIS2_PLACEMENT_3D('',#147,#148,#149);
#151=PLANE('',#150);
#152=ORIENTED_EDGE('',*,*,#126,.F.);
#153=ORIENTED_EDGE('',*,*,#141,.F.);
#154=EDGE_LOOP('',(#152,#153));
#155=FACE_OUTER_BOUND('',#154,.F.);
#156=ORIENTED_EDGE('',*,*,#97,.F.);
#157=ORIENTED_EDGE('',*,*,#80,.F.);
#158=EDGE_LOOP('',(#156,#157));
#159=FACE_BOUND('',#158,.F.);
#160=ADVANCED_FACE('',(#155,#159),#151,.F.);
#161=CLOSED_SHELL('',(#88,#102,#118,#133,#146,#160));
#162=MANIFOLD_SOLID_BREP('',#161);
#164=DIMENSIONAL_EXPONENTS(0.E0,0.E0,0.E0,0.E0,0.E0,0.E0,0.E0);
#166=PLANE_ANGLE_MEASURE_WITH_UNIT(PLANE_ANGLE_MEASURE(1.745329251994E-2),#165);
#167=(CONVERSION_BASED_UNIT('DEGREE',#166)NAMED_UNIT(*)PLANE_ANGLE_UNIT());
#169=UNCERTAINTY_MEASURE_WITH_UNIT(LENGTH_MEASURE(3.000088317767E-1),#163,
'closure',
'Maximum model space distance between geometric entities at asserted connectivities');
#170=(GEOMETRIC_REPRESENTATION_CONTEXT(3)GLOBAL_UNCERTAINTY_ASSIGNED_CONTEXT((
#169))GLOBAL_UNIT_ASSIGNED_CONTEXT((#163,#167,#168))REPRESENTATION_CONTEXT
('ID1','3'));
#172=APPLICATION_CONTEXT(
'CONFIGURATION CONTROLLED 3D DESIGNS OF MECHANICAL PARTS AND ASSEMBLIES');
#173=APPLICATION_PROTOCOL_DEFINITION('international standard',
'config_control_design',1994,#172);
#174=DESIGN_CONTEXT('',#172,'design');
#175=MECHANICAL_CONTEXT('',#172,'mechanical');
#176=PRODUCT('2046752','2046752','NOT SPECIFIED',(#175));
#177=PRODUCT_DEFINITION_FORMATION_WITH_SPECIFIED_SOURCE('1','LAST_VERSION',#176,
.MADE.);
#181=PRODUCT_CATEGORY('part','');
#182=PRODUCT_RELATED_PRODUCT_CATEGORY('detail','',(#176));
#183=PRODUCT_CATEGORY_RELATIONSHIP('','',#181,#182);
#184=SECURITY_CLASSIFICATION_LEVEL('unclassified');
#185=SECURITY_CLASSIFICATION('','',#184);
#186=CC_DESIGN_SECURITY_CLASSIFICATION(#185,(#177));
#187=APPROVAL_STATUS('approved');
#188=APPROVAL(#187,'');
#189=CC_DESIGN_APPROVAL(#188,(#185,#177,#178));
#190=CALENDAR_DATE(115,17,6);
#191=COORDINATED_UNIVERSAL_TIME_OFFSET(2,0,.AHEAD.);
#192=LOCAL_TIME(14,24,4.2E1,#191);
#193=DATE_AND_TIME(#190,#192);
#194=APPROVAL_DATE_TIME(#193,#188);
#195=DATE_TIME_ROLE('creation_date');
#196=CC_DESIGN_DATE_AND_TIME_ASSIGNMENT(#193,#195,(#178));
#197=DATE_TIME_ROLE('classification_date');
#198=CC_DESIGN_DATE_AND_TIME_ASSIGNMENT(#193,#197,(#185));
#199=PERSON('UNSPECIFIED','UNSPECIFIED',$,$,$,$);
#200=ORGANIZATION('UNSPECIFIED','UNSPECIFIED','UNSPECIFIED');
#201=PERSON_AND_ORGANIZATION(#199,#200);
#202=APPROVAL_ROLE('approver');
#203=APPROVAL_PERSON_ORGANIZATION(#201,#188,#202);
#204=PERSON_AND_ORGANIZATION_ROLE('creator');
#205=CC_DESIGN_PERSON_AND_ORGANIZATION_ASSIGNMENT(#201,#204,(#177,#178));
#206=PERSON_AND_ORGANIZATION_ROLE('design_supplier');
#207=CC_DESIGN_PERSON_AND_ORGANIZATION_ASSIGNMENT(#201,#206,(#177));
#208=PERSON_AND_ORGANIZATION_ROLE('classification_officer');
#209=CC_DESIGN_PERSON_AND_ORGANIZATION_ASSIGNMENT(#201,#208,(#185));
#210=PERSON_AND_ORGANIZATION_ROLE('design_owner');
#211=CC_DESIGN_PERSON_AND_ORGANIZATION_ASSIGNMENT(#201,#210,(#176));
#13=CIRCLE('',#12,1.25E1);
#18=CIRCLE('',#17,1.25E1);
#23=CIRCLE('',#22,1.15E1);
#28=CIRCLE('',#27,1.15E1);
#41=CIRCLE('',#40,1.25E1);
#46=CIRCLE('',#45,1.25E1);
#51=CIRCLE('',#50,1.15E1);
#56=CIRCLE('',#55,1.15E1);
#78=EDGE_CURVE('',#72,#68,#4,.T.);
#80=EDGE_CURVE('',#72,#71,#56,.T.);
#82=EDGE_CURVE('',#71,#67,#8,.T.);
#84=EDGE_CURVE('',#67,#68,#28,.T.);
#94=EDGE_CURVE('',#68,#67,#23,.T.);
#97=EDGE_CURVE('',#71,#72,#51,.T.);
#108=EDGE_CURVE('',#63,#64,#13,.T.);
#110=EDGE_CURVE('',#64,#63,#18,.T.);
#124=EDGE_CURVE('',#59,#64,#32,.T.);
#126=EDGE_CURVE('',#59,#60,#41,.T.);
#128=EDGE_CURVE('',#60,#63,#36,.T.);
#141=EDGE_CURVE('',#60,#59,#46,.T.);
#163=(LENGTH_UNIT()NAMED_UNIT(*)SI_UNIT(.MILLI.,.METRE.));
#165=(NAMED_UNIT(*)PLANE_ANGLE_UNIT()SI_UNIT($,.RADIAN.));
#168=(NAMED_UNIT(*)SI_UNIT($,.STERADIAN.)SOLID_ANGLE_UNIT());
#171=ADVANCED_BREP_SHAPE_REPRESENTATION('',(#162),#170);
#178=PRODUCT_DEFINITION('design','',#177,#174);
#179=PRODUCT_DEFINITION_SHAPE('','SHAPE FOR 2046752.',#178);
#180=SHAPE_DEFINITION_REPRESENTATION(#179,#171);
ENDSEC;
END-ISO-10303-21;
