ISO-10303-21;
HEADER;
FILE_DESCRIPTION (( 'STEP AP214' ),
    '1' );
FILE_NAME ('2046014.stp',
    '2024-01-26T07:05:32',
    ( '' ),
    ( '' ),
    'SwSTEP 2.0',
    'SolidWorks 2022',
    '' );
FILE_SCHEMA (( 'AUTOMOTIVE_DESIGN' ));
ENDSEC;

DATA;
#1 = CARTESIAN_POINT ( 'NONE',  ( -109.9999999999997300, -26.70000000000112550, 0.000000000000000000 ) ) ;
#2 = ORIENTED_EDGE ( 'NONE', *, *, #168, .F. ) ;
#3 = STYLED_ITEM ( 'NONE', ( #33 ), #95 ) ;
#4 = CARTESIAN_POINT ( 'NONE',  ( -109.9999999999997300, -25.50000000000111200, 0.000000000000000000 ) ) ;
#5 = CARTESIAN_POINT ( 'NONE',  ( 66.70000000000000284, 110.0000000000000000, 0.000000000000000000 ) ) ;
#6 = FACE_OUTER_BOUND ( 'NONE', #89, .T. ) ;
#7 = FACE_OUTER_BOUND ( 'NONE', #10, .T. ) ;
#8 = ADVANCED_FACE ( 'NONE', ( #281, #249 ), #25, .T. ) ;
#9 = CYLINDRICAL_SURFACE ( 'NONE', #51, 13.80000000000001315 ) ;
#10 = EDGE_LOOP ( 'NONE', ( #257 ) ) ;
#11 = FACE_OUTER_BOUND ( 'NONE', #277, .T. ) ;
#12 = CIRCLE ( 'NONE', #273, 13.80000000000000604 ) ;
#13 = AXIS2_PLACEMENT_3D ( 'NONE', #368, #218, #250 ) ;
#14 = ORIENTED_EDGE ( 'NONE', *, *, #372, .F. ) ;
#15 = ORIENTED_EDGE ( 'NONE', *, *, #312, .T. ) ;
#16 = AXIS2_PLACEMENT_3D ( 'NONE', #243, #101, #74 ) ;
#17 = VERTEX_POINT ( 'NONE', #336 ) ;
#18 = DIRECTION ( 'NONE',  ( -0.000000000000000000, -0.000000000000000000, -1.000000000000000000 ) ) ;
#19 = DIRECTION ( 'NONE',  ( 0.000000000000000000, 0.000000000000000000, 1.000000000000000000 ) ) ;
#20 = AXIS2_PLACEMENT_3D ( 'NONE', #29, #196, #57 ) ;
#21 =( GEOMETRIC_REPRESENTATION_CONTEXT ( 3 ) GLOBAL_UNCERTAINTY_ASSIGNED_CONTEXT ( ( #304 ) ) GLOBAL_UNIT_ASSIGNED_CONTEXT ( ( #90, #293, #150 ) ) REPRESENTATION_CONTEXT ( 'NONE', 'WORKASPACE' ) );
#22 = VERTEX_POINT ( 'NONE', #216 ) ;
#23 = PRODUCT ( '2046014', '2046014', '', ( #102 ) ) ;
#24 = FACE_OUTER_BOUND ( 'NONE', #142, .T. ) ;
#25 = CYLINDRICAL_SURFACE ( 'NONE', #13, 13.80000000000001315 ) ;
#26 = ORIENTED_EDGE ( 'NONE', *, *, #372, .T. ) ;
#27 = CYLINDRICAL_SURFACE ( 'NONE', #327, 12.59999999999998543 ) ;
#28 = TOROIDAL_SURFACE ( 'NONE', #94, 109.9999999999999858, 12.60000000000000142 ) ;
#29 = CARTESIAN_POINT ( 'NONE',  ( 66.70000000000000284, 123.8000000000000114, 0.000000000000000000 ) ) ;
#30 = FACE_OUTER_BOUND ( 'NONE', #50, .T. ) ;
#31 = FACE_OUTER_BOUND ( 'NONE', #164, .T. ) ;
#32 = EDGE_LOOP ( 'NONE', ( #319 ) ) ;
#33 = PRESENTATION_STYLE_ASSIGNMENT (( #58 ) ) ;
#34 = PLANE ( 'NONE',  #254 ) ;
#35 = EDGE_LOOP ( 'NONE', ( #2 ) ) ;
#36 = EDGE_CURVE ( 'NONE', #360, #360, #81, .T. ) ;
#37 = DIRECTION ( 'NONE',  ( 0.000000000000000000, 0.000000000000000000, 1.000000000000000000 ) ) ;
#38 = CARTESIAN_POINT ( 'NONE',  ( -110.0000000000000000, -1.123545700920658419E-12, 0.000000000000000000 ) ) ;
#39 = ORIENTED_EDGE ( 'NONE', *, *, #40, .F. ) ;
#40 = EDGE_CURVE ( 'NONE', #53, #53, #127, .T. ) ;
#41 = AXIS2_PLACEMENT_3D ( 'NONE', #85, #193, #314 ) ;
#42 = ADVANCED_FACE ( 'NONE', ( #54, #141 ), #144, .T. ) ;
#43 = EDGE_LOOP ( 'NONE', ( #292 ) ) ;
#44 = EDGE_CURVE ( 'NONE', #76, #76, #104, .T. ) ;
#45 = CARTESIAN_POINT ( 'NONE',  ( 66.70000000000000284, 110.0000000000000000, 12.59999999999998543 ) ) ;
#46 = AXIS2_PLACEMENT_3D ( 'NONE', #160, #139, #19 ) ;
#47 = CARTESIAN_POINT ( 'NONE',  ( 0.000000000000000000, 110.0000000000000000, 12.60000000000000142 ) ) ;
#48 = CARTESIAN_POINT ( 'NONE',  ( 27.90000000000001634, 110.0000000000000000, 13.80000000000002025 ) ) ;
#49 = CIRCLE ( 'NONE', #69, 12.59999999999998543 ) ;
#50 = EDGE_LOOP ( 'NONE', ( #335 ) ) ;
#51 = AXIS2_PLACEMENT_3D ( 'NONE', #230, #170, #60 ) ;
#52 = PRESENTATION_STYLE_ASSIGNMENT (( #137 ) ) ;
#53 = VERTEX_POINT ( 'NONE', #75 ) ;
#54 = FACE_OUTER_BOUND ( 'NONE', #341, .T. ) ;
#55 = ORIENTED_EDGE ( 'NONE', *, *, #44, .T. ) ;
#56 = DIRECTION ( 'NONE',  ( 0.000000000000000000, 0.000000000000000000, 1.000000000000000000 ) ) ;
#57 = DIRECTION ( 'NONE',  ( -0.000000000000000000, 0.000000000000000000, 1.000000000000000000 ) ) ;
#58 = SURFACE_STYLE_USAGE ( .BOTH. , #347 ) ;
#59 = CARTESIAN_POINT ( 'NONE',  ( -123.7999999999993292, -66.70000000000126761, 0.000000000000000000 ) ) ;
#60 = DIRECTION ( 'NONE',  ( 0.000000000000000000, 0.000000000000000000, 1.000000000000000000 ) ) ;
#61 = DIRECTION ( 'NONE',  ( 0.000000000000000000, 0.000000000000000000, 1.000000000000000000 ) ) ;
#62 = EDGE_LOOP ( 'NONE', ( #268 ) ) ;
#63 = DIRECTION ( 'NONE',  ( 0.000000000000000000, 0.000000000000000000, 1.000000000000000000 ) ) ;
#64 = CARTESIAN_POINT ( 'NONE',  ( -109.9999999999993179, -66.70000000000113971, 0.000000000000000000 ) ) ;
#65 = TOROIDAL_SURFACE ( 'NONE', #16, 109.9999999999999858, 13.80000000000000782 ) ;
#66 = DIRECTION ( 'NONE',  ( -1.021405182655144017E-14, 1.000000000000000000, -0.000000000000000000 ) ) ;
#67 = EDGE_LOOP ( 'NONE', ( #329 ) ) ;
#68 = PRODUCT_DEFINITION ( 'UNKNOWN', '', #251, #278 ) ;
#69 = AXIS2_PLACEMENT_3D ( 'NONE', #64, #295, #286 ) ;
#70 = AXIS2_PLACEMENT_3D ( 'NONE', #87, #320, #325 ) ;
#71 = EDGE_LOOP ( 'NONE', ( #26 ) ) ;
#72 = ADVANCED_FACE ( 'NONE', ( #11, #30 ), #9, .T. ) ;
#73 = DIRECTION ( 'NONE',  ( 1.000000000000000000, 0.000000000000000000, 0.000000000000000000 ) ) ;
#74 = DIRECTION ( 'NONE',  ( -1.000000000000000000, 0.000000000000000000, 0.000000000000000000 ) ) ;
#75 = CARTESIAN_POINT ( 'NONE',  ( 28.39705627484768868, 110.0000000000000000, 12.59999999999998543 ) ) ;
#76 = VERTEX_POINT ( 'NONE', #48 ) ;
#77 = ORIENTED_EDGE ( 'NONE', *, *, #235, .F. ) ;
#78 = PRODUCT_RELATED_PRODUCT_CATEGORY ( 'part', '', ( #23 ) ) ;
#79 = CARTESIAN_POINT ( 'NONE',  ( -109.9999999999997300, -25.50000000000111200, 13.80000000000002025 ) ) ;
#80 = AXIS2_PLACEMENT_3D ( 'NONE', #316, #351, #56 ) ;
#81 = CIRCLE ( 'NONE', #289, 12.59999999999998543 ) ;
#82 = AXIS2_PLACEMENT_3D ( 'NONE', #267, #158, #73 ) ;
#83 =( GEOMETRIC_REPRESENTATION_CONTEXT ( 3 ) GLOBAL_UNCERTAINTY_ASSIGNED_CONTEXT ( ( #133 ) ) GLOBAL_UNIT_ASSIGNED_CONTEXT ( ( #269, #333, #363 ) ) REPRESENTATION_CONTEXT ( 'NONE', 'WORKASPACE' ) );
#84 = ORIENTED_EDGE ( 'NONE', *, *, #140, .F. ) ;
#85 = CARTESIAN_POINT ( 'NONE',  ( 28.39705627484768868, 110.0000000000000000, 0.000000000000000000 ) ) ;
#86 = DIRECTION ( 'NONE',  ( -1.021405182655144017E-14, 1.000000000000000000, -0.000000000000000000 ) ) ;
#87 = CARTESIAN_POINT ( 'NONE',  ( -109.9999999999997158, -27.90000000000113900, 0.000000000000000000 ) ) ;
#88 = DIRECTION ( 'NONE',  ( -1.000000000000000000, -0.000000000000000000, -0.000000000000000000 ) ) ;
#89 = EDGE_LOOP ( 'NONE', ( #39 ) ) ;
#90 =( LENGTH_UNIT ( ) NAMED_UNIT ( * ) SI_UNIT ( .MILLI., .METRE. ) );
#91 = DIRECTION ( 'NONE',  ( -1.021405182655144017E-14, 1.000000000000000000, -0.000000000000000000 ) ) ;
#92 = DIRECTION ( 'NONE',  ( -1.000000000000000000, -0.000000000000000000, -0.000000000000000000 ) ) ;
#93 = EDGE_LOOP ( 'NONE', ( #299 ) ) ;
#94 = AXIS2_PLACEMENT_3D ( 'NONE', #311, #18, #132 ) ;
#95 = MANIFOLD_SOLID_BREP ( 'Spiegeln1', #191 ) ;
#96 = AXIS2_PLACEMENT_3D ( 'NONE', #115, #204, #123 ) ;
#97 = TOROIDAL_SURFACE ( 'NONE', #315, 14.70000000000000462, 2.699999999999999734 ) ;
#98 = ORIENTED_EDGE ( 'NONE', *, *, #266, .T. ) ;
#99 = ORIENTED_EDGE ( 'NONE', *, *, #44, .F. ) ;
#100 = VERTEX_POINT ( 'NONE', #244 ) ;
#101 = DIRECTION ( 'NONE',  ( -0.000000000000000000, -0.000000000000000000, -1.000000000000000000 ) ) ;
#102 = PRODUCT_CONTEXT ( 'NONE', #355, 'mechanical' ) ;
#103 = CARTESIAN_POINT ( 'NONE',  ( -109.9999999999993179, -66.70000000000113971, 12.59999999999998543 ) ) ;
#104 = CIRCLE ( 'NONE', #119, 13.80000000000002025 ) ;
#105 = ADVANCED_FACE ( 'NONE', ( #153, #120 ), #226, .F. ) ;
#106 =( NAMED_UNIT ( * ) PLANE_ANGLE_UNIT ( ) SI_UNIT ( $, .RADIAN. ) );
#107 = CARTESIAN_POINT ( 'NONE',  ( -110.0000000000000000, -1.123545700920658419E-12, 12.60000000000000142 ) ) ;
#108 = EDGE_CURVE ( 'NONE', #22, #22, #361, .T. ) ;
#109 = DIRECTION ( 'NONE',  ( 0.000000000000000000, 0.000000000000000000, 1.000000000000000000 ) ) ;
#110 = DIRECTION ( 'NONE',  ( 1.021405182655144017E-14, -1.000000000000000000, 0.000000000000000000 ) ) ;
#111 = DIRECTION ( 'NONE',  ( 0.000000000000000000, 0.000000000000000000, 1.000000000000000000 ) ) ;
#112 = EDGE_CURVE ( 'NONE', #157, #157, #328, .T. ) ;
#113 = CIRCLE ( 'NONE', #131, 13.80000000000000604 ) ;
#114 = CARTESIAN_POINT ( 'NONE',  ( 66.70000000000000284, 110.0000000000000000, 0.000000000000000000 ) ) ;
#115 = CARTESIAN_POINT ( 'NONE',  ( 0.000000000000000000, 110.0000000000000000, 0.000000000000000000 ) ) ;
#116 = AXIS2_PLACEMENT_3D ( 'NONE', #344, #92, #205 ) ;
#117 = FACE_OUTER_BOUND ( 'NONE', #156, .T. ) ;
#118 = FACE_OUTER_BOUND ( 'NONE', #152, .T. ) ;
#119 = AXIS2_PLACEMENT_3D ( 'NONE', #313, #263, #352 ) ;
#120 = FACE_OUTER_BOUND ( 'NONE', #322, .T. ) ;
#121 = FACE_OUTER_BOUND ( 'NONE', #240, .T. ) ;
#122 = FACE_OUTER_BOUND ( 'NONE', #209, .T. ) ;
#123 = DIRECTION ( 'NONE',  ( 0.000000000000000000, 0.000000000000000000, 1.000000000000000000 ) ) ;
#124 = ORIENTED_EDGE ( 'NONE', *, *, #340, .F. ) ;
#125 = CIRCLE ( 'NONE', #172, 12.60000000000001386 ) ;
#126 = ADVANCED_FACE ( 'NONE', ( #6, #122 ), #97, .T. ) ;
#127 = CIRCLE ( 'NONE', #41, 12.59999999999998543 ) ;
#128 = EDGE_LOOP ( 'NONE', ( #326 ) ) ;
#129 = APPLICATION_PROTOCOL_DEFINITION ( 'draft international standard', 'automotive_design', 1998, #355 ) ;
#130 = ORIENTED_EDGE ( 'NONE', *, *, #108, .F. ) ;
#131 = AXIS2_PLACEMENT_3D ( 'NONE', #300, #275, #109 ) ;
#132 = DIRECTION ( 'NONE',  ( -1.000000000000000000, 0.000000000000000000, 0.000000000000000000 ) ) ;
#133 = UNCERTAINTY_MEASURE_WITH_UNIT (LENGTH_MEASURE( 1.000000000000000082E-05 ), #269, 'distance_accuracy_value', 'NONE');
#134 = EDGE_CURVE ( 'NONE', #337, #337, #246, .T. ) ;
#135 = CARTESIAN_POINT ( 'NONE',  ( 25.00294372515227437, 110.0000000000000000, 12.60000000000001386 ) ) ;
#136 = COLOUR_RGB ( '',0.7529411764705882248, 0.7529411764705882248, 0.7529411764705882248 ) ;
#137 = SURFACE_STYLE_USAGE ( .BOTH. , #241 ) ;
#138 = CARTESIAN_POINT ( 'NONE',  ( -109.9999999999997442, -25.00294372515340058, 0.000000000000000000 ) ) ;
#139 = DIRECTION ( 'NONE',  ( 1.021405182655144017E-14, -1.000000000000000000, 0.000000000000000000 ) ) ;
#140 = EDGE_CURVE ( 'NONE', #271, #271, #147, .T. ) ;
#141 = FACE_OUTER_BOUND ( 'NONE', #128, .T. ) ;
#142 = EDGE_LOOP ( 'NONE', ( #15 ) ) ;
#143 = STYLED_ITEM ( 'NONE', ( #52 ), #296 ) ;
#144 = CYLINDRICAL_SURFACE ( 'NONE', #298, 13.80000000000001315 ) ;
#145 = FACE_OUTER_BOUND ( 'NONE', #265, .T. ) ;
#146 = DIRECTION ( 'NONE',  ( -1.021405182655144017E-14, 1.000000000000000000, 0.000000000000000000 ) ) ;
#147 = CIRCLE ( 'NONE', #116, 13.80000000000002025 ) ;
#148 = DIRECTION ( 'NONE',  ( 0.000000000000000000, 0.000000000000000000, 1.000000000000000000 ) ) ;
#149 = EDGE_LOOP ( 'NONE', ( #161 ) ) ;
#150 =( NAMED_UNIT ( * ) SI_UNIT ( $, .STERADIAN. ) SOLID_ANGLE_UNIT ( ) );
#151 = DIRECTION ( 'NONE',  ( 0.000000000000000000, 0.000000000000000000, 1.000000000000000000 ) ) ;
#152 = EDGE_LOOP ( 'NONE', ( #165 ) ) ;
#153 = FACE_OUTER_BOUND ( 'NONE', #239, .T. ) ;
#154 = AXIS2_PLACEMENT_3D ( 'NONE', #4, #262, #232 ) ;
#155 = ORIENTED_EDGE ( 'NONE', *, *, #266, .F. ) ;
#156 = EDGE_LOOP ( 'NONE', ( #124 ) ) ;
#157 = VERTEX_POINT ( 'NONE', #47 ) ;
#158 = DIRECTION ( 'NONE',  ( 0.000000000000000000, 0.000000000000000000, 1.000000000000000000 ) ) ;
#159 = VERTEX_POINT ( 'NONE', #135 ) ;
#160 = CARTESIAN_POINT ( 'NONE',  ( -110.0000000000000000, -1.123545700920658419E-12, 0.000000000000000000 ) ) ;
#161 = ORIENTED_EDGE ( 'NONE', *, *, #340, .T. ) ;
#162 = AXIS2_PLACEMENT_3D ( 'NONE', #234, #259, #148 ) ;
#163 = VERTEX_POINT ( 'NONE', #103 ) ;
#164 = EDGE_LOOP ( 'NONE', ( #84 ) ) ;
#165 = ORIENTED_EDGE ( 'NONE', *, *, #40, .T. ) ;
#166 = FACE_OUTER_BOUND ( 'NONE', #357, .T. ) ;
#167 = ADVANCED_FACE ( 'NONE', ( #373, #117 ), #317, .F. ) ;
#168 = EDGE_CURVE ( 'NONE', #163, #163, #49, .T. ) ;
#169 = CARTESIAN_POINT ( 'NONE',  ( -110.0000000000000000, -1.123545700920658419E-12, 0.000000000000000000 ) ) ;
#170 = DIRECTION ( 'NONE',  ( -1.000000000000000000, -0.000000000000000000, -0.000000000000000000 ) ) ;
#171 = DIRECTION ( 'NONE',  ( 0.000000000000000000, 0.000000000000000000, 1.000000000000000000 ) ) ;
#172 = AXIS2_PLACEMENT_3D ( 'NONE', #229, #197, #348 ) ;
#173 = DIRECTION ( 'NONE',  ( 0.000000000000000000, 0.000000000000000000, 1.000000000000000000 ) ) ;
#174 = DIRECTION ( 'NONE',  ( -1.000000000000000000, -0.000000000000000000, -0.000000000000000000 ) ) ;
#175 = EDGE_LOOP ( 'NONE', ( #288 ) ) ;
#176 = SURFACE_STYLE_FILL_AREA ( #290 ) ;
#177 = ADVANCED_FACE ( 'NONE', ( #253, #121 ), #287, .T. ) ;
#178 = FACE_OUTER_BOUND ( 'NONE', #67, .T. ) ;
#179 = AXIS2_PLACEMENT_3D ( 'NONE', #169, #285, #190 ) ;
#180 = EDGE_LOOP ( 'NONE', ( #255 ) ) ;
#181 = AXIS2_PLACEMENT_3D ( 'NONE', #1, #91, #61 ) ;
#182 = ORIENTED_EDGE ( 'NONE', *, *, #312, .F. ) ;
#183 = CARTESIAN_POINT ( 'NONE',  ( -109.9999999999997442, -25.00294372515340058, 12.60000000000001386 ) ) ;
#184 = CARTESIAN_POINT ( 'NONE',  ( 66.70000000000000284, 110.0000000000000000, 13.80000000000000604 ) ) ;
#185 = CIRCLE ( 'NONE', #46, 13.80000000000000604 ) ;
#186 = FILL_AREA_STYLE_COLOUR ( '', #301 ) ;
#187 = CARTESIAN_POINT ( 'NONE',  ( 25.49999999999998934, 110.0000000000000000, 13.80000000000002025 ) ) ;
#188 = EDGE_LOOP ( 'NONE', ( #349 ) ) ;
#189 = SHAPE_DEFINITION_REPRESENTATION ( #346, #296 ) ;
#190 = DIRECTION ( 'NONE',  ( 0.000000000000000000, 0.000000000000000000, 1.000000000000000000 ) ) ;
#191 = CLOSED_SHELL ( 'NONE', ( #258, #126, #237, #303, #42, #274, #72, #366, #369, #343, #177, #167, #242, #8, #105, #194 ) ) ;
#192 = DIRECTION ( 'NONE',  ( -1.000000000000000000, -0.000000000000000000, -0.000000000000000000 ) ) ;
#193 = DIRECTION ( 'NONE',  ( -1.000000000000000000, -0.000000000000000000, -0.000000000000000000 ) ) ;
#194 = ADVANCED_FACE ( 'NONE', ( #252, #318 ), #200, .T. ) ;
#195 = MECHANICAL_DESIGN_GEOMETRIC_PRESENTATION_REPRESENTATION (  '', ( #3 ), #21 ) ;
#196 = DIRECTION ( 'NONE',  ( -1.000000000000000000, 0.000000000000000000, -0.000000000000000000 ) ) ;
#197 = DIRECTION ( 'NONE',  ( -1.000000000000000000, -0.000000000000000000, -0.000000000000000000 ) ) ;
#198 = ORIENTED_EDGE ( 'NONE', *, *, #36, .F. ) ;
#199 = CARTESIAN_POINT ( 'NONE',  ( -109.9999999999997300, -26.70000000000112550, 0.000000000000000000 ) ) ;
#200 = CYLINDRICAL_SURFACE ( 'NONE', #338, 13.80000000000001315 ) ;
#201 = ORIENTED_EDGE ( 'NONE', *, *, #36, .T. ) ;
#202 = EDGE_CURVE ( 'NONE', #331, #331, #12, .T. ) ;
#203 = CARTESIAN_POINT ( 'NONE',  ( 26.70000000000000284, 110.0000000000000000, 0.000000000000000000 ) ) ;
#204 = DIRECTION ( 'NONE',  ( -1.000000000000000000, -0.000000000000000000, -0.000000000000000000 ) ) ;
#205 = DIRECTION ( 'NONE',  ( 0.000000000000000000, 0.000000000000000000, 1.000000000000000000 ) ) ;
#206 = AXIS2_PLACEMENT_3D ( 'NONE', #138, #110, #359 ) ;
#207 = ORIENTED_EDGE ( 'NONE', *, *, #235, .T. ) ;
#208 = EDGE_LOOP ( 'NONE', ( #77 ) ) ;
#209 = EDGE_LOOP ( 'NONE', ( #207 ) ) ;
#210 = FACE_OUTER_BOUND ( 'NONE', #261, .T. ) ;
#211 = FILL_AREA_STYLE ('',( #186 ) ) ;
#212 = FACE_OUTER_BOUND ( 'NONE', #188, .T. ) ;
#213 = APPLICATION_PROTOCOL_DEFINITION ( 'draft international standard', 'automotive_design', 1998, #371 ) ;
#214 = VERTEX_POINT ( 'NONE', #245 ) ;
#215 = SURFACE_STYLE_FILL_AREA ( #211 ) ;
#216 = CARTESIAN_POINT ( 'NONE',  ( -109.9999999999997158, -27.90000000000113900, 13.80000000000002025 ) ) ;
#217 = CARTESIAN_POINT ( 'NONE',  ( -110.0000000000000000, -1.123545700920658419E-12, 0.000000000000000000 ) ) ;
#218 = DIRECTION ( 'NONE',  ( -1.021405182655144017E-14, 1.000000000000000000, -0.000000000000000000 ) ) ;
#219 =( GEOMETRIC_REPRESENTATION_CONTEXT ( 3 ) GLOBAL_UNCERTAINTY_ASSIGNED_CONTEXT ( ( #220 ) ) GLOBAL_UNIT_ASSIGNED_CONTEXT ( ( #310, #106, #330 ) ) REPRESENTATION_CONTEXT ( 'NONE', 'WORKASPACE' ) );
#220 = UNCERTAINTY_MEASURE_WITH_UNIT (LENGTH_MEASURE( 1.000000000000000082E-05 ), #310, 'distance_accuracy_value', 'NONE');
#221 = CIRCLE ( 'NONE', #206, 12.60000000000001386 ) ;
#222 = DIRECTION ( 'NONE',  ( -1.000000000000000000, -0.000000000000000000, -0.000000000000000000 ) ) ;
#223 = DIRECTION ( 'NONE',  ( -1.000000000000000000, -0.000000000000000000, -0.000000000000000000 ) ) ;
#224 = CIRCLE ( 'NONE', #179, 12.60000000000000142 ) ;
#225 = CARTESIAN_POINT ( 'NONE',  ( -110.0000000000000000, -1.123545700920658419E-12, 0.000000000000000000 ) ) ;
#226 = TOROIDAL_SURFACE ( 'NONE', #264, 14.70000000000000462, 1.500000000000001332 ) ;
#227 = DIRECTION ( 'NONE',  ( 0.000000000000000000, 0.000000000000000000, 1.000000000000000000 ) ) ;
#228 = DIRECTION ( 'NONE',  ( -1.021405182655144017E-14, 1.000000000000000000, -0.000000000000000000 ) ) ;
#229 = CARTESIAN_POINT ( 'NONE',  ( 25.00294372515227437, 110.0000000000000000, 0.000000000000000000 ) ) ;
#230 = CARTESIAN_POINT ( 'NONE',  ( 0.000000000000000000, 110.0000000000000000, 0.000000000000000000 ) ) ;
#231 = CARTESIAN_POINT ( 'NONE',  ( 0.000000000000000000, 110.0000000000000000, 0.000000000000000000 ) ) ;
#232 = DIRECTION ( 'NONE',  ( 0.000000000000000000, 0.000000000000000000, 1.000000000000000000 ) ) ;
#233 = EDGE_LOOP ( 'NONE', ( #98 ) ) ;
#234 = CARTESIAN_POINT ( 'NONE',  ( 0.000000000000000000, 110.0000000000000000, 0.000000000000000000 ) ) ;
#235 = EDGE_CURVE ( 'NONE', #159, #159, #125, .T. ) ;
#236 = PRESENTATION_LAYER_ASSIGNMENT (  '', '', ( #143 ) ) ;
#237 = ADVANCED_FACE ( 'NONE', ( #166, #118 ), #27, .F. ) ;
#238 = TOROIDAL_SURFACE ( 'NONE', #80, 14.70000000000000462, 1.500000000000001332 ) ;
#239 = EDGE_LOOP ( 'NONE', ( #358 ) ) ;
#240 = EDGE_LOOP ( 'NONE', ( #182 ) ) ;
#241 = SURFACE_SIDE_STYLE ('',( #215 ) ) ;
#242 = ADVANCED_FACE ( 'NONE', ( #291, #345 ), #34, .F. ) ;
#243 = CARTESIAN_POINT ( 'NONE',  ( 0.000000000000000000, 0.000000000000000000, 0.000000000000000000 ) ) ;
#244 = CARTESIAN_POINT ( 'NONE',  ( -109.9999999999993179, -66.70000000000113971, 13.80000000000000604 ) ) ;
#245 = CARTESIAN_POINT ( 'NONE',  ( 0.000000000000000000, 110.0000000000000000, 13.80000000000000604 ) ) ;
#246 = CIRCLE ( 'NONE', #154, 13.80000000000002025 ) ;
#247 = CYLINDRICAL_SURFACE ( 'NONE', #270, 12.60000000000000675 ) ;
#248 = DIRECTION ( 'NONE',  ( 0.000000000000000000, 0.000000000000000000, 1.000000000000000000 ) ) ;
#249 = FACE_OUTER_BOUND ( 'NONE', #308, .T. ) ;
#250 = DIRECTION ( 'NONE',  ( 0.000000000000000000, 0.000000000000000000, 1.000000000000000000 ) ) ;
#251 = PRODUCT_DEFINITION_FORMATION_WITH_SPECIFIED_SOURCE ( 'ANY', '', #23, .NOT_KNOWN. ) ;
#252 = FACE_OUTER_BOUND ( 'NONE', #43, .T. ) ;
#253 = FACE_OUTER_BOUND ( 'NONE', #149, .T. ) ;
#254 = AXIS2_PLACEMENT_3D ( 'NONE', #59, #146, #151 ) ;
#255 = ORIENTED_EDGE ( 'NONE', *, *, #168, .T. ) ;
#256 = CARTESIAN_POINT ( 'NONE',  ( 0.000000000000000000, 110.0000000000000000, 0.000000000000000000 ) ) ;
#257 = ORIENTED_EDGE ( 'NONE', *, *, #112, .T. ) ;
#258 = ADVANCED_FACE ( 'NONE', ( #260, #7 ), #324, .F. ) ;
#259 = DIRECTION ( 'NONE',  ( -1.000000000000000000, 0.000000000000000000, 0.000000000000000000 ) ) ;
#260 = FACE_OUTER_BOUND ( 'NONE', #208, .T. ) ;
#261 = EDGE_LOOP ( 'NONE', ( #297 ) ) ;
#262 = DIRECTION ( 'NONE',  ( 1.021405182655144017E-14, -1.000000000000000000, 0.000000000000000000 ) ) ;
#263 = DIRECTION ( 'NONE',  ( -1.000000000000000000, -0.000000000000000000, -0.000000000000000000 ) ) ;
#264 = AXIS2_PLACEMENT_3D ( 'NONE', #199, #66, #37 ) ;
#265 = EDGE_LOOP ( 'NONE', ( #55 ) ) ;
#266 = EDGE_CURVE ( 'NONE', #214, #214, #309, .T. ) ;
#267 = CARTESIAN_POINT ( 'NONE',  ( 0.000000000000000000, 0.000000000000000000, 0.000000000000000000 ) ) ;
#268 = ORIENTED_EDGE ( 'NONE', *, *, #112, .F. ) ;
#269 =( LENGTH_UNIT ( ) NAMED_UNIT ( * ) SI_UNIT ( .MILLI., .METRE. ) );
#270 = AXIS2_PLACEMENT_3D ( 'NONE', #217, #364, #339 ) ;
#271 = VERTEX_POINT ( 'NONE', #187 ) ;
#272 = FACE_OUTER_BOUND ( 'NONE', #175, .T. ) ;
#273 = AXIS2_PLACEMENT_3D ( 'NONE', #5, #88, #370 ) ;
#274 = ADVANCED_FACE ( 'NONE', ( #31, #145 ), #238, .F. ) ;
#275 = DIRECTION ( 'NONE',  ( 1.021405182655144017E-14, -1.000000000000000000, 0.000000000000000000 ) ) ;
#276 = PRESENTATION_LAYER_ASSIGNMENT (  '', '', ( #3 ) ) ;
#277 = EDGE_LOOP ( 'NONE', ( #155 ) ) ;
#278 = PRODUCT_DEFINITION_CONTEXT ( 'detailed design', #371, 'design' ) ;
#279 = VERTEX_POINT ( 'NONE', #306 ) ;
#280 = FACE_OUTER_BOUND ( 'NONE', #62, .T. ) ;
#281 = FACE_OUTER_BOUND ( 'NONE', #32, .T. ) ;
#282 = CARTESIAN_POINT ( 'NONE',  ( 0.000000000000000000, 110.0000000000000000, 0.000000000000000000 ) ) ;
#283 = FACE_BOUND ( 'NONE', #353, .T. ) ;
#284 = AXIS2_PLACEMENT_3D ( 'NONE', #365, #307, #248 ) ;
#285 = DIRECTION ( 'NONE',  ( 1.021405182655144017E-14, -1.000000000000000000, -0.000000000000000000 ) ) ;
#286 = DIRECTION ( 'NONE',  ( 0.000000000000000000, 0.000000000000000000, 1.000000000000000000 ) ) ;
#287 = TOROIDAL_SURFACE ( 'NONE', #181, 14.70000000000000462, 2.699999999999999734 ) ;
#288 = ORIENTED_EDGE ( 'NONE', *, *, #305, .T. ) ;
#289 = AXIS2_PLACEMENT_3D ( 'NONE', #114, #222, #367 ) ;
#290 = FILL_AREA_STYLE ('',( #350 ) ) ;
#291 = FACE_OUTER_BOUND ( 'NONE', #71, .T. ) ;
#292 = ORIENTED_EDGE ( 'NONE', *, *, #332, .T. ) ;
#293 =( NAMED_UNIT ( * ) PLANE_ANGLE_UNIT ( ) SI_UNIT ( $, .RADIAN. ) );
#294 = MECHANICAL_DESIGN_GEOMETRIC_PRESENTATION_REPRESENTATION (  '', ( #143 ), #219 ) ;
#295 = DIRECTION ( 'NONE',  ( 1.021405182655144017E-14, -1.000000000000000000, 0.000000000000000000 ) ) ;
#296 = ADVANCED_BREP_SHAPE_REPRESENTATION ( '2046014', ( #95, #82 ), #83 ) ;
#297 = ORIENTED_EDGE ( 'NONE', *, *, #332, .F. ) ;
#298 = AXIS2_PLACEMENT_3D ( 'NONE', #282, #192, #111 ) ;
#299 = ORIENTED_EDGE ( 'NONE', *, *, #134, .F. ) ;
#300 = CARTESIAN_POINT ( 'NONE',  ( -109.9999999999993179, -66.70000000000113971, 0.000000000000000000 ) ) ;
#301 = COLOUR_RGB ( '',0.7529411764705882248, 0.7529411764705882248, 0.7529411764705882248 ) ;
#302 = FACE_OUTER_BOUND ( 'NONE', #233, .T. ) ;
#303 = ADVANCED_FACE ( 'NONE', ( #178, #283 ), #342, .F. ) ;
#304 = UNCERTAINTY_MEASURE_WITH_UNIT (LENGTH_MEASURE( 1.000000000000000082E-05 ), #90, 'distance_accuracy_value', 'NONE');
#305 = EDGE_CURVE ( 'NONE', #362, #362, #224, .T. ) ;
#306 = CARTESIAN_POINT ( 'NONE',  ( -109.9999999999997158, -28.39705627484881489, 12.59999999999998543 ) ) ;
#307 = DIRECTION ( 'NONE',  ( 1.021405182655144017E-14, -1.000000000000000000, 0.000000000000000000 ) ) ;
#308 = EDGE_LOOP ( 'NONE', ( #14 ) ) ;
#309 = CIRCLE ( 'NONE', #356, 13.80000000000000604 ) ;
#310 =( LENGTH_UNIT ( ) NAMED_UNIT ( * ) SI_UNIT ( .MILLI., .METRE. ) );
#311 = CARTESIAN_POINT ( 'NONE',  ( 0.000000000000000000, 0.000000000000000000, 0.000000000000000000 ) ) ;
#312 = EDGE_CURVE ( 'NONE', #334, #334, #221, .T. ) ;
#313 = CARTESIAN_POINT ( 'NONE',  ( 27.90000000000001634, 110.0000000000000000, 0.000000000000000000 ) ) ;
#314 = DIRECTION ( 'NONE',  ( 0.000000000000000000, 0.000000000000000000, 1.000000000000000000 ) ) ;
#315 = AXIS2_PLACEMENT_3D ( 'NONE', #203, #323, #63 ) ;
#316 = CARTESIAN_POINT ( 'NONE',  ( 26.70000000000000284, 110.0000000000000000, 0.000000000000000000 ) ) ;
#317 = CYLINDRICAL_SURFACE ( 'NONE', #374, 12.59999999999998543 ) ;
#318 = FACE_OUTER_BOUND ( 'NONE', #93, .T. ) ;
#319 = ORIENTED_EDGE ( 'NONE', *, *, #108, .T. ) ;
#320 = DIRECTION ( 'NONE',  ( 1.021405182655144017E-14, -1.000000000000000000, 0.000000000000000000 ) ) ;
#321 = DIRECTION ( 'NONE',  ( 0.000000000000000000, 0.000000000000000000, 1.000000000000000000 ) ) ;
#322 = EDGE_LOOP ( 'NONE', ( #130 ) ) ;
#323 = DIRECTION ( 'NONE',  ( -1.000000000000000000, -0.000000000000000000, -0.000000000000000000 ) ) ;
#324 = CYLINDRICAL_SURFACE ( 'NONE', #96, 12.60000000000000675 ) ;
#325 = DIRECTION ( 'NONE',  ( 0.000000000000000000, 0.000000000000000000, 1.000000000000000000 ) ) ;
#326 = ORIENTED_EDGE ( 'NONE', *, *, #202, .T. ) ;
#327 = AXIS2_PLACEMENT_3D ( 'NONE', #256, #174, #227 ) ;
#328 = CIRCLE ( 'NONE', #162, 12.60000000000000142 ) ;
#329 = ORIENTED_EDGE ( 'NONE', *, *, #202, .F. ) ;
#330 =( NAMED_UNIT ( * ) SI_UNIT ( $, .STERADIAN. ) SOLID_ANGLE_UNIT ( ) );
#331 = VERTEX_POINT ( 'NONE', #184 ) ;
#332 = EDGE_CURVE ( 'NONE', #17, #17, #185, .T. ) ;
#333 =( NAMED_UNIT ( * ) PLANE_ANGLE_UNIT ( ) SI_UNIT ( $, .RADIAN. ) );
#334 = VERTEX_POINT ( 'NONE', #183 ) ;
#335 = ORIENTED_EDGE ( 'NONE', *, *, #140, .T. ) ;
#336 = CARTESIAN_POINT ( 'NONE',  ( -110.0000000000000000, -1.123545700920658419E-12, 13.80000000000000604 ) ) ;
#337 = VERTEX_POINT ( 'NONE', #79 ) ;
#338 = AXIS2_PLACEMENT_3D ( 'NONE', #38, #86, #321 ) ;
#339 = DIRECTION ( 'NONE',  ( 0.000000000000000000, 0.000000000000000000, 1.000000000000000000 ) ) ;
#340 = EDGE_CURVE ( 'NONE', #279, #279, #354, .T. ) ;
#341 = EDGE_LOOP ( 'NONE', ( #99 ) ) ;
#342 = PLANE ( 'NONE',  #20 ) ;
#343 = ADVANCED_FACE ( 'NONE', ( #24, #212 ), #247, .F. ) ;
#344 = CARTESIAN_POINT ( 'NONE',  ( 25.49999999999998934, 110.0000000000000000, 0.000000000000000000 ) ) ;
#345 = FACE_BOUND ( 'NONE', #35, .T. ) ;
#346 = PRODUCT_DEFINITION_SHAPE ( 'NONE', 'NONE',  #68 ) ;
#347 = SURFACE_SIDE_STYLE ('',( #176 ) ) ;
#348 = DIRECTION ( 'NONE',  ( 0.000000000000000000, 0.000000000000000000, 1.000000000000000000 ) ) ;
#349 = ORIENTED_EDGE ( 'NONE', *, *, #305, .F. ) ;
#350 = FILL_AREA_STYLE_COLOUR ( '', #136 ) ;
#351 = DIRECTION ( 'NONE',  ( -1.000000000000000000, -0.000000000000000000, -0.000000000000000000 ) ) ;
#352 = DIRECTION ( 'NONE',  ( 0.000000000000000000, 0.000000000000000000, 1.000000000000000000 ) ) ;
#353 = EDGE_LOOP ( 'NONE', ( #201 ) ) ;
#354 = CIRCLE ( 'NONE', #284, 12.59999999999998543 ) ;
#355 = APPLICATION_CONTEXT ( 'automotive_design' ) ;
#356 = AXIS2_PLACEMENT_3D ( 'NONE', #231, #223, #171 ) ;
#357 = EDGE_LOOP ( 'NONE', ( #198 ) ) ;
#358 = ORIENTED_EDGE ( 'NONE', *, *, #134, .T. ) ;
#359 = DIRECTION ( 'NONE',  ( 0.000000000000000000, 0.000000000000000000, 1.000000000000000000 ) ) ;
#360 = VERTEX_POINT ( 'NONE', #45 ) ;
#361 = CIRCLE ( 'NONE', #70, 13.80000000000002025 ) ;
#362 = VERTEX_POINT ( 'NONE', #107 ) ;
#363 =( NAMED_UNIT ( * ) SI_UNIT ( $, .STERADIAN. ) SOLID_ANGLE_UNIT ( ) );
#364 = DIRECTION ( 'NONE',  ( -1.021405182655144017E-14, 1.000000000000000000, -0.000000000000000000 ) ) ;
#365 = CARTESIAN_POINT ( 'NONE',  ( -109.9999999999997158, -28.39705627484881489, 0.000000000000000000 ) ) ;
#366 = ADVANCED_FACE ( 'NONE', ( #280, #272 ), #28, .F. ) ;
#367 = DIRECTION ( 'NONE',  ( 0.000000000000000000, 0.000000000000000000, 1.000000000000000000 ) ) ;
#368 = CARTESIAN_POINT ( 'NONE',  ( -110.0000000000000000, -1.123545700920658419E-12, 0.000000000000000000 ) ) ;
#369 = ADVANCED_FACE ( 'NONE', ( #302, #210 ), #65, .T. ) ;
#370 = DIRECTION ( 'NONE',  ( 0.000000000000000000, 0.000000000000000000, 1.000000000000000000 ) ) ;
#371 = APPLICATION_CONTEXT ( 'automotive_design' ) ;
#372 = EDGE_CURVE ( 'NONE', #100, #100, #113, .T. ) ;
#373 = FACE_OUTER_BOUND ( 'NONE', #180, .T. ) ;
#374 = AXIS2_PLACEMENT_3D ( 'NONE', #225, #228, #173 ) ;
ENDSEC;
END-ISO-10303-21;
